Music World

Enter or register
Войдите или зарегистрируйтесь
Music World

All About Music


    Аккорды / Chord

    Share
    avatar
    Janet
    Admin

    Сообщения : 716
    Дата регистрации : 2011-02-14

    Аккорды / Chord

    Post  Janet on Tue Feb 15, 2011 9:10 pm

    Song: Are You That Somebody
    Artist: Aaliyah feat. Timbaland

    Album: Doctor DoLittle soundtrack
    Tabbed by: Taylor (tibi4145@aol.com)


    G|-----------------|-------------------|---------------|-----------------|
    D|*-0--0-----------|------0--------(00)|--------(0-0-0)|----------------*|
    A|*----------------|0--3-----3--0------|1--1-----------|0--0-----(4-4-4)*|
    E|-----------------|-------------------|---------------|-----------------|

    Repeat this rhythm through the entire song. The parts in parentheses are
    optional.




    Last edited by Janet on Wed Feb 16, 2011 7:48 pm; edited 1 time in total
    avatar
    Janet
    Admin

    Сообщения : 716
    Дата регистрации : 2011-02-14

    Аккорды / Chord

    Post  Janet on Wed Feb 16, 2011 7:33 pm

    Title: Back In One Piece
    Artists: DMX and Aaliyah
    Album: Romeo Must Die Soundtrack
    Tabbed by: Taylor (tibi4145@aol.com)


    Intro (only one time)
    s s s s s s s s s s s s s s s s s = sixteenth note
    G|-R-------R-------R-------R-------| e = dotted eight note
    D|---------------------------------| E = eighth note
    A|-----5-4-----5-4-----5-4-----5-4-| R = Rest
    E|---3-------3-------3-------3-----| q = dotted quarter note

    Main Riff (repeated through the whole song)

    s s s s s s s s s s s e s s s E s E s q s s s
    G|--R-------R---R---R-----R------|---R---R-----R------------|
    D|*------------------------------|-2---3---4---------------*|
    A|*-----5-4-----------4-5--------|-------------------------*|
    E|----3-------2---3-----------0-0|------------------2-2-3---|


    This song is kind of hard at first, but the best thing is to listen to the song and figure it out because the tab is somewhat hard to follow. But the bass line is tight and is repeated through the entire song except the part in the middle where Aaliyah sings and there is nothing but drums.

    avatar
    Janet
    Admin

    Сообщения : 716
    Дата регистрации : 2011-02-14

    Re: Аккорды / Chord

    Post  Janet on Wed Feb 16, 2011 7:34 pm


    *=-=*=-=*=-=*=-=*=-=*=-=*=-=*=-=*=-=*=-=*=-=*=-=*=-=*=-=*=-=*=-=*=-=*=-=*=-=*
    I Miss U by Aaliyah
    *=-=*=-=*=-=*=-=*=-=*=-=*=-=*=-=*=-=*=-=*=-=*=-=*=-=*=-=*=-=*=-=*=-=*=-=*=-=*

    Tabbed by: LilSkeeto aka Brey
    Email: lilskeeto055@aol.com or lildrusync@aol.com
    (if ya wanna get it to me sooner)

    Tuning: Eh... I never change my toonink. It's regular... cause I'm lazy.


    e|---------------| |---------------|
    B|-7---------7---|* |---7-------7---|
    G|---6/5-4-4-----| o |-----6-4-4-----| Whavah Is
    D|---------------| r |---------------| Bettah For Yah
    A|---------------| *|---------------|
    E|---------------| |---------------|

    Repeat as needed. It's basically the EXACT SAME THING through the song...
    Comments/Corrections please.


    Last edited by Janet on Wed Feb 16, 2011 7:43 pm; edited 1 time in total
    avatar
    Janet
    Admin

    Сообщения : 716
    Дата регистрации : 2011-02-14

    Re: Аккорды / Chord

    Post  Janet on Wed Feb 16, 2011 7:37 pm

    Aaliyah - If Your Girl Only Knew, аккорды

    If Your Girl Only Knew- Aaliyah On One In a Million

    | | | | | | | |

    e |--------------------------------|--------------------------------|
    b |--------------------------------|--------------------------------|
    g |--------------------------------|--------------------------------|
    d |--------------------------------|--------------------------------|
    a |--------------------------------|--8---7---------7---8-----------|
    e |4/--5/------7-----8---8---------|--------------------------------|


    If Anyone got anymore Aaliyah tabs please post them

    avatar
    Janet
    Admin

    Сообщения : 716
    Дата регистрации : 2011-02-14

    Аккорды / Chord

    Post  Janet on Wed Feb 16, 2011 7:40 pm

    Aaliyah - Journey To The Past, аккорды

    k i tryed to do titanic but ended up with this
    journay to the past


    Heart dont fail me now Courage don't desert me, dont turn back now that were here
    e |---3---2-3--5-3----3---2-3--5--7--5---3---2-3--5--3-2-3----|
    b |-----------------------------------------------------------|
    g |-----------------------------------------------------------|
    d |-----------------------------------------------------------|
    a |-----------------------------------------------------------|
    e |-----------------------------------------------------------|


    People always say life is full of choices No one ever mentions fear

    e |---5---4-5--7-5----5---4-5--7--9--7---5---4-5--7--5-4-5----|
    b |-----------------------------------------------------------|
    g |-----------------------------------------------------------|
    d |-----------------------------------------------------------|
    a |-----------------------------------------------------------|
    e |-----------------------------------------------------------|

    This is all i got tho its kool... im gona try finish tabbing the song but
    i dunno.. seems boring.. anyways.. PEACE!!
    Olga Aka:surfergirl
    if anything...

    avatar
    Janet
    Admin

    Сообщения : 716
    Дата регистрации : 2011-02-14

    Аккорды / Chord

    Post  Janet on Wed Feb 16, 2011 7:46 pm

    --------------------------------------------------------------------
    Miss You - Aaliyah
    --------------------------------------------------------------------

    Tabbed by: MiStAhMoOgLe


    Tuning: Normal
    Moderately slow hip-hop (with a half-time feel)
    Metronome = 112
    Key: Bb Major
    Stanza: 4/4

    e|-----------------------------1----|---------------1--3--1--------|
    B|----3----------3--1---------------|----1-------------------------|
    G|---------0-------------2----------|---------2--------2-----------|
    D|-------1-------------3------------|-------3----------0-----------|
    A|----------------------------------|------------------------------|
    E|----------------------------------|------------------------------|

    e|-----------------------------1----|------------------------------|
    B|----3----------3--1---------------|----3--1-----1--1-------------|
    G|---------0-------------2----------|-------------------3-----3----|
    D|-------1-------------3------------|----------------0-------------|
    A|----------------------------------|------------------------------|
    E|----------------------------------|------------------------------|

    ====================================================================

    Sponsored content

    Re: Аккорды / Chord

    Post  Sponsored content


      Current date/time is Thu Nov 15, 2018 4:27 pm